BORED? HERE ARE 5 EASY GUITAR RIFFS YOU CAN LEARN NOW!

March 23, 2020

Here are 5 easy guitar riffs that you can learn to play right now! Grab that dusty old guitar from the corner of your room, tune it up and take a look at these cool riffs that are easy enough to play right now!

 

 Use the tablature provided and visual cues in the video. For guitar tuning help, we recommend the following free apps:

Pano Tuner, Guitar Tuna, Pitchlab.

 

 

1. DEEP PURPLE - SMOKE ON THE WATER

E|-------------------------------------------------

B|-------------------------------------------------

G|--0--3--5----0--3--6--5----0--3--5----3--

D|--0--3--5----0--3--6--5----0--3--5----3--

A|-------------------------------------------------

E|-------------------------------------------------

 

 

2. THE WHITE STRIPES - SEVEN NATION ARMY

E|--------------------------

B|--------------------------

G|----------0--------------

D|--2----2-----2--0------

A|-------------------3--2--

E|--------------------------

 

 

3. TWENTY ONE PILOTS – HEATHENS

E|-----------------

B|-----------------

G|-----------------

D|-----------------

A|--3--0--2-------

E|-----------3--0-

 

 

4. THE ROLLING STONES – (I CAN’T GET NO) SATISFACTION

E|-----------------------------------------

B|-----------------------------------------

G|-----------------------------------------

D|-----------------------------------------

A|--2--2----2--4--5----5--5--4--4—2

E|------------------------------------------

 

 

5. CREAM - SUNSHINE OF YOUR LOVE

E|------------------------------------

B|------------------------------------

G|------------------------------------

D|------------------------------3-----

A|--5--5--3--5-------------5---5---

E|----------------5--4--3-------------

 

 

Please reload

Recent Posts

Please reload

Featured Posts

Please reload

Visit Us:

 (Head Office) Southend YMCA,

Newlands

85 Ambleside Drive,

Southend On Sea, SS1 2FY

Visit Us:

Southend YMCA

Business Eco-Hub

2a St John's Road,

Westcliff On Sea, SS0 7JZ

Contact Us:

01702 301 301

Together, we can end youth homelessness in Southend.

Southend's Leading Children's Charity - Southend-on-Sea Young Men’s Christian Association (Southend YMCA) Registered Charity Number: 1102837 (registered in England); Limited Liability Company number 5051166;  Non-profit, private registered provider of social housing: Number 4853

SYMCA_our_comm_CMYK_black.png